行きたい日付からパパッと検索!航空券の最安値が見つかる!

Joli départ
Nice Côte d'Azur départ

Naples (Italy) aller
Naples arrivée

NAP départ  Nice Côte d'Azur aller

Les prix peuvent changer en fonction de la date d'embarquement. Veuillez appuyez sur une date sur le calendrier pour sélectionner une date d'embarquement.

Departure Date

2019/8
Dim. Lun. Mar. Mer. Jeu. Ven. Sam.
1------2------3------
4------5------6------7------8------9------10------
11------12------13------14------15------16------17------
18------19------20------21------22------23------24------
25------26------27------28------2930630Search31Search
S'il vous plaît sélectionner un chemin retour date de départ   Changer la date de départ vers l'extérieur

Return Date

2019/8
Dim.Lun.Mar.Mer.Jeu.Ven.Sam.
1------2------3------
4------5------6------7------8------9------10------
11------12------13------14------15------16------17------
18------19------20------21------22------23------24------
25------26------27------28------29------30------31------
  S'il vous plaît choisir une date de départ de la voie à suivre

Devise:euro en lectureObtenez des fraisRéacquisition

Departure Date
Return Date
montant total(Aller-retour/économie)

Les tarifs affichés, il y a un cas où les résultats de recherche réels diffèrent

  • Nice Côte d'Azur départ -NAP arrivée

    octobre Il prezzo più basso Voir ci-dessous

    EUR157


    La compagnie aérienne avec ce montant de vol est Alitalia.


    Définissez le calendrier pour ce mois.
  • Nice Côte d'Azur départ -NAP arrivée

    novembre Il prezzo più basso Voir ci-dessous

    EUR169


    La compagnie aérienne avec ce montant de vol est Air France.


    Définissez le calendrier pour ce mois.
  • Nice Côte d'Azur départ -NAP arrivée

    décembre Il prezzo più basso Voir ci-dessous -----
  • Joli départ -Naples (Italy) aller
    Avion Temps de vol Voir ci-dessous

    1Heures25Minutes
  • Joli départ -Naples (Italy) arrivée
    Nombre de compagnies aériennes Voir ci-dessous

    10

Billets d'avion pas chers et billets d'avion pour Nice Côte d'Azur départ -NAP arrivée sont des billets de ski!

ステータス:
メッセージ1
メッセージ2
メッセージ3
メッセージ4
メッセージ5
メッセージ6
メッセージ7
メッセージ8
メッセージ9
メッセージ10
メッセージ11
メッセージ12
メッセージ13
メッセージ14